ISO-10303-21;
HEADER;
FILE_DESCRIPTION (( 'STEP AP214' ),
    '1' );
FILE_NAME ('CB60C_STP_V10522.STEP',
    '2022-05-16T11:31:38',
    ( '' ),
    ( '' ),
    'SwSTEP 2.0',
    'SolidWorks 2022',
    '' );
FILE_SCHEMA (( 'AUTOMOTIVE_DESIGN' ));
ENDSEC;

DATA;
#1 = ORIENTED_EDGE ( 'NONE', *, *, #397, .F. ) ;
#2 = EDGE_CURVE ( 'NONE', #96, #248, #42, .T. ) ;
#3 = DIRECTION ( 'NONE',  ( 0.000000000000000000, 1.000000000000000000, 0.000000000000000000 ) ) ;
#4 = APPLICATION_CONTEXT ( 'automotive_design' ) ;
#5 = ORIENTED_EDGE ( 'NONE', *, *, #333, .T. ) ;
#6 = DIRECTION ( 'NONE',  ( 0.000000000000000000, 0.000000000000000000, -1.000000000000000000 ) ) ;
#7 = FACE_OUTER_BOUND ( 'NONE', #192, .T. ) ;
#8 =( NAMED_UNIT ( * ) SI_UNIT ( $, .STERADIAN. ) SOLID_ANGLE_UNIT ( ) );
#9 = VERTEX_POINT ( 'NONE', #104 ) ;
#10 = ADVANCED_FACE ( 'NONE', ( #128 ), #11, .T. ) ;
#11 = CYLINDRICAL_SURFACE ( 'NONE', #82, 44.99999999999998579 ) ;
#12 = PLANE ( 'NONE',  #13 ) ;
#13 = AXIS2_PLACEMENT_3D ( 'NONE', #159, #383, #224 ) ;
#14 = CIRCLE ( 'NONE', #187, 44.99999999999998579 ) ;
#15 = DIRECTION ( 'NONE',  ( 0.000000000000000000, -1.000000000000000000, 0.000000000000000000 ) ) ;
#16 = EDGE_CURVE ( 'NONE', #166, #96, #218, .T. ) ;
#17 = CARTESIAN_POINT ( 'NONE',  ( -302.5000000000000000, 25.00000000000000000, 230.0000000000000000 ) ) ;
#18 = CARTESIAN_POINT ( 'NONE',  ( -302.5000000000000000, 20.00000000000000000, -230.0000000000000000 ) ) ;
#19 = AXIS2_PLACEMENT_3D ( 'NONE', #22, #362, #358 ) ;
#20 = DIRECTION ( 'NONE',  ( -0.7071067811865400232, 0.7071067811865550112, 0.000000000000000000 ) ) ;
#21 = ADVANCED_FACE ( 'NONE', ( #35 ), #12, .F. ) ;
#22 = CARTESIAN_POINT ( 'NONE',  ( 0.000000000000000000, 25.00000000000000000, 0.000000000000000000 ) ) ;
#23 = DIRECTION ( 'NONE',  ( 0.000000000000000000, 0.000000000000000000, -1.000000000000000000 ) ) ;
#24 = ORIENTED_EDGE ( 'NONE', *, *, #63, .F. ) ;
#25 = ADVANCED_BREP_SHAPE_REPRESENTATION ( 'CB60C_STP_V10522', ( #401, #312 ), #346 ) ;
#26 = CARTESIAN_POINT ( 'NONE',  ( -302.5000000000000000, 20.00000000000000000, 185.0000000000000000 ) ) ;
#27 = DIRECTION ( 'NONE',  ( 0.000000000000000000, 0.000000000000000000, 1.000000000000000000 ) ) ;
#28 = EDGE_LOOP ( 'NONE', ( #379, #372, #132, #121 ) ) ;
#29 = CARTESIAN_POINT ( 'NONE',  ( 257.5000000000000000, 25.00000000000000000, 225.0000000000000000 ) ) ;
#30 = DIRECTION ( 'NONE',  ( 0.000000000000000000, 1.000000000000000000, 0.000000000000000000 ) ) ;
#31 = ORIENTED_EDGE ( 'NONE', *, *, #99, .T. ) ;
#32 = VECTOR ( 'NONE', #61, 1000.000000000000000 ) ;
#33 = EDGE_CURVE ( 'NONE', #380, #211, #356, .T. ) ;
#34 = APPLICATION_PROTOCOL_DEFINITION ( 'draft international standard', 'automotive_design', 1998, #4 ) ;
#35 = FACE_OUTER_BOUND ( 'NONE', #402, .T. ) ;
#36 = CARTESIAN_POINT ( 'NONE',  ( 257.5000000000000000, 20.00000000000000000, 185.0000000000000000 ) ) ;
#37 = ORIENTED_EDGE ( 'NONE', *, *, #204, .F. ) ;
#38 = EDGE_CURVE ( 'NONE', #208, #300, #348, .T. ) ;
#39 = ORIENTED_EDGE ( 'NONE', *, *, #249, .T. ) ;
#40 = AXIS2_PLACEMENT_3D ( 'NONE', #84, #114, #339 ) ;
#41 = SURFACE_STYLE_FILL_AREA ( #129 ) ;
#42 = LINE ( 'NONE', #286, #274 ) ;
#43 = ORIENTED_EDGE ( 'NONE', *, *, #2, .F. ) ;
#44 = DIRECTION ( 'NONE',  ( 0.000000000000000000, 0.000000000000000000, 1.000000000000000000 ) ) ;
#45 = VECTOR ( 'NONE', #176, 1000.000000000000000 ) ;
#46 = CARTESIAN_POINT ( 'NONE',  ( -257.5000000000000000, 20.00000000000000000, 230.0000000000000000 ) ) ;
#47 = CARTESIAN_POINT ( 'NONE',  ( 0.000000000000000000, 0.000000000000000000, 0.000000000000000000 ) ) ;
#48 = CARTESIAN_POINT ( 'NONE',  ( -302.5000000000000000, 0.000000000000000000, 185.0000000000000000 ) ) ;
#49 = ADVANCED_FACE ( 'NONE', ( #7 ), #172, .T. ) ;
#50 = CLOSED_SHELL ( 'NONE', ( #181, #200, #381, #388, #153, #10, #94, #49, #116, #74, #349, #21, #289 ) ) ;
#51 = VECTOR ( 'NONE', #385, 1000.000000000000000 ) ;
#52 = STYLED_ITEM ( 'NONE', ( #252 ), #25 ) ;
#53 = PLANE ( 'NONE',  #169 ) ;
#54 = LINE ( 'NONE', #85, #267 ) ;
#55 = DIRECTION ( 'NONE',  ( 0.000000000000000000, 0.000000000000000000, -1.000000000000000000 ) ) ;
#56 = VECTOR ( 'NONE', #168, 1000.000000000000000 ) ;
#57 = DIRECTION ( 'NONE',  ( -1.000000000000000000, 0.000000000000000000, 0.000000000000000000 ) ) ;
#58 = UNCERTAINTY_MEASURE_WITH_UNIT (LENGTH_MEASURE( 1.000000000000000082E-05 ), #66, 'distance_accuracy_value', 'NONE');
#59 = AXIS2_PLACEMENT_3D ( 'NONE', #250, #186, #246 ) ;
#60 = ORIENTED_EDGE ( 'NONE', *, *, #275, .F. ) ;
#61 = DIRECTION ( 'NONE',  ( 0.000000000000000000, -1.000000000000000000, 0.000000000000000000 ) ) ;
#62 = DIRECTION ( 'NONE',  ( 0.000000000000000000, 0.000000000000000000, -1.000000000000000000 ) ) ;
#63 = EDGE_CURVE ( 'NONE', #313, #211, #156, .T. ) ;
#64 = EDGE_LOOP ( 'NONE', ( #342, #238, #194, #119 ) ) ;
#65 = VECTOR ( 'NONE', #98, 1000.000000000000000 ) ;
#66 =( LENGTH_UNIT ( ) NAMED_UNIT ( * ) SI_UNIT ( .MILLI., .METRE. ) );
#67 = VERTEX_POINT ( 'NONE', #18 ) ;
#68 =( LENGTH_UNIT ( ) NAMED_UNIT ( * ) SI_UNIT ( .MILLI., .METRE. ) );
#69 = ORIENTED_EDGE ( 'NONE', *, *, #282, .T. ) ;
#70 = ORIENTED_EDGE ( 'NONE', *, *, #275, .T. ) ;
#71 = CIRCLE ( 'NONE', #223, 40.00000000000000711 ) ;
#72 = CARTESIAN_POINT ( 'NONE',  ( -302.5000000000000000, 0.000000000000000000, 230.0000000000000000 ) ) ;
#73 = DIRECTION ( 'NONE',  ( 0.000000000000000000, 0.000000000000000000, -1.000000000000000000 ) ) ;
#74 = ADVANCED_FACE ( 'NONE', ( #79 ), #53, .F. ) ;
#75 = CARTESIAN_POINT ( 'NONE',  ( 297.5000000000000000, 25.00000000000000000, 0.000000000000000000 ) ) ;
#76 = VECTOR ( 'NONE', #199, 1000.000000000000000 ) ;
#77 = CARTESIAN_POINT ( 'NONE',  ( 257.5000000000000000, 25.00000000000000000, 185.0000000000000000 ) ) ;
#78 = EDGE_CURVE ( 'NONE', #197, #67, #298, .T. ) ;
#79 = FACE_OUTER_BOUND ( 'NONE', #28, .T. ) ;
#80 = PRODUCT_CONTEXT ( 'NONE', #4, 'mechanical' ) ;
#81 = CARTESIAN_POINT ( 'NONE',  ( -302.5000000000000000, 0.000000000000000000, 230.0000000000000000 ) ) ;
#82 = AXIS2_PLACEMENT_3D ( 'NONE', #162, #351, #133 ) ;
#83 = CIRCLE ( 'NONE', #137, 44.99999999999998579 ) ;
#84 = CARTESIAN_POINT ( 'NONE',  ( -257.5000000000000000, 25.00000000000000000, 185.0000000000000000 ) ) ;
#85 = CARTESIAN_POINT ( 'NONE',  ( 257.5000000000000000, 20.00000000000000000, 230.0000000000000000 ) ) ;
#86 = VERTEX_POINT ( 'NONE', #143 ) ;
#87 = EDGE_CURVE ( 'NONE', #300, #130, #231, .T. ) ;
#88 = PLANE ( 'NONE',  #142 ) ;
#89 = VERTEX_POINT ( 'NONE', #361 ) ;
#90 = VECTOR ( 'NONE', #205, 1000.000000000000000 ) ;
#91 = CARTESIAN_POINT ( 'NONE',  ( -302.5000000000000000, 25.00000000000000000, 230.0000000000000000 ) ) ;
#92 = VECTOR ( 'NONE', #210, 1000.000000000000000 ) ;
#93 = ORIENTED_EDGE ( 'NONE', *, *, #145, .F. ) ;
#94 = ADVANCED_FACE ( 'NONE', ( #258 ), #141, .T. ) ;
#95 = LINE ( 'NONE', #341, #277 ) ;
#96 = VERTEX_POINT ( 'NONE', #198 ) ;
#97 =( NAMED_UNIT ( * ) PLANE_ANGLE_UNIT ( ) SI_UNIT ( $, .RADIAN. ) );
#98 = DIRECTION ( 'NONE',  ( -0.7071067811865400232, 0.7071067811865550112, 0.000000000000000000 ) ) ;
#99 = EDGE_CURVE ( 'NONE', #273, #89, #293, .T. ) ;
#100 = EDGE_LOOP ( 'NONE', ( #206, #251, #344, #24 ) ) ;
#101 = CARTESIAN_POINT ( 'NONE',  ( 0.000000000000000000, 25.00000000000000000, 225.0000000000000000 ) ) ;
#102 = ORIENTED_EDGE ( 'NONE', *, *, #109, .F. ) ;
#103 = VECTOR ( 'NONE', #188, 1000.000000000000000 ) ;
#104 = CARTESIAN_POINT ( 'NONE',  ( 257.5000000000000000, 20.00000000000000000, 230.0000000000000000 ) ) ;
#105 = AXIS2_PLACEMENT_3D ( 'NONE', #332, #395, #62 ) ;
#106 = DIRECTION ( 'NONE',  ( 0.7071067811865550112, -0.7071067811865400232, 0.000000000000000000 ) ) ;
#107 = DIRECTION ( 'NONE',  ( 0.000000000000000000, 0.000000000000000000, -1.000000000000000000 ) ) ;
#108 = LINE ( 'NONE', #144, #174 ) ;
#109 = EDGE_CURVE ( 'NONE', #313, #86, #322, .T. ) ;
#110 = VECTOR ( 'NONE', #44, 1000.000000000000000 ) ;
#111 = PRODUCT_DEFINITION_FORMATION_WITH_SPECIFIED_SOURCE ( 'ANY', '', #335, .NOT_KNOWN. ) ;
#112 = FACE_OUTER_BOUND ( 'NONE', #191, .T. ) ;
#113 = CARTESIAN_POINT ( 'NONE',  ( -297.5000000000000000, 25.00000000000000000, 0.000000000000000000 ) ) ;
#114 = DIRECTION ( 'NONE',  ( 0.000000000000000000, -1.000000000000000000, 0.000000000000000000 ) ) ;
#115 = FACE_OUTER_BOUND ( 'NONE', #183, .T. ) ;
#116 = ADVANCED_FACE ( 'NONE', ( #112 ), #329, .F. ) ;
#117 = ORIENTED_EDGE ( 'NONE', *, *, #359, .F. ) ;
#118 = CARTESIAN_POINT ( 'NONE',  ( 297.5000000000000000, 25.00000000000000000, 185.0000000000000000 ) ) ;
#119 = ORIENTED_EDGE ( 'NONE', *, *, #145, .T. ) ;
#120 = CARTESIAN_POINT ( 'NONE',  ( -297.5000000000000000, 25.00000000000000000, -230.0000000000000000 ) ) ;
#121 = ORIENTED_EDGE ( 'NONE', *, *, #33, .T. ) ;
#122 = AXIS2_PLACEMENT_3D ( 'NONE', #47, #15, #107 ) ;
#123 = FACE_OUTER_BOUND ( 'NONE', #271, .T. ) ;
#124 = COLOUR_RGB ( '',0.7921568627450980005, 0.8196078431372548767, 0.9333333333333333481 ) ;
#125 = VERTEX_POINT ( 'NONE', #48 ) ;
#126 = CARTESIAN_POINT ( 'NONE',  ( -257.5000000000000000, 0.000000000000000000, 230.0000000000000000 ) ) ;
#127 = PRESENTATION_STYLE_ASSIGNMENT (( #221 ) ) ;
#128 = FACE_OUTER_BOUND ( 'NONE', #222, .T. ) ;
#129 = FILL_AREA_STYLE ('',( #382 ) ) ;
#130 = VERTEX_POINT ( 'NONE', #227 ) ;
#131 = PRESENTATION_LAYER_ASSIGNMENT (  '', '', ( #52 ) ) ;
#132 = ORIENTED_EDGE ( 'NONE', *, *, #295, .T. ) ;
#133 = DIRECTION ( 'NONE',  ( 0.000000000000000000, 0.000000000000000000, -1.000000000000000000 ) ) ;
#134 = EDGE_CURVE ( 'NONE', #130, #353, #387, .T. ) ;
#135 = APPLICATION_PROTOCOL_DEFINITION ( 'draft international standard', 'automotive_design', 1998, #309 ) ;
#136 = ORIENTED_EDGE ( 'NONE', *, *, #295, .F. ) ;
#137 = AXIS2_PLACEMENT_3D ( 'NONE', #207, #334, #55 ) ;
#138 = CARTESIAN_POINT ( 'NONE',  ( -297.5000000000000000, 25.00000000000000000, 0.000000000000000000 ) ) ;
#139 = CARTESIAN_POINT ( 'NONE',  ( -302.5000000000000000, 20.00000000000000000, 230.0000000000000000 ) ) ;
#140 = EDGE_CURVE ( 'NONE', #208, #313, #108, .T. ) ;
#141 = CYLINDRICAL_SURFACE ( 'NONE', #323, 44.99999999999998579 ) ;
#142 = AXIS2_PLACEMENT_3D ( 'NONE', #364, #57, #184 ) ;
#143 = CARTESIAN_POINT ( 'NONE',  ( 302.5000000000000000, 0.000000000000000000, -230.0000000000000000 ) ) ;
#144 = CARTESIAN_POINT ( 'NONE',  ( 302.5000000000000000, 25.00000000000000000, 185.0000000000000000 ) ) ;
#145 = EDGE_CURVE ( 'NONE', #307, #125, #386, .T. ) ;
#146 = LINE ( 'NONE', #336, #260 ) ;
#147 = ORIENTED_EDGE ( 'NONE', *, *, #16, .T. ) ;
#148 = VECTOR ( 'NONE', #203, 1000.000000000000000 ) ;
#149 = CARTESIAN_POINT ( 'NONE',  ( 257.5000000000000000, 0.000000000000000000, 230.0000000000000000 ) ) ;
#150 = ORIENTED_EDGE ( 'NONE', *, *, #249, .F. ) ;
#151 = CARTESIAN_POINT ( 'NONE',  ( 302.5000000000000000, 25.00000000000000000, -230.0000000000000000 ) ) ;
#152 = EDGE_LOOP ( 'NONE', ( #150, #213, #178, #243 ) ) ;
#153 = ADVANCED_FACE ( 'NONE', ( #173 ), #229, .F. ) ;
#154 = DIRECTION ( 'NONE',  ( 0.000000000000000000, 1.000000000000000000, 0.000000000000000000 ) ) ;
#155 = EDGE_LOOP ( 'NONE', ( #269, #315, #302, #1 ) ) ;
#156 = CIRCLE ( 'NONE', #345, 44.99999999999998579 ) ;
#157 = ORIENTED_EDGE ( 'NONE', *, *, #326, .T. ) ;
#158 =( NAMED_UNIT ( * ) PLANE_ANGLE_UNIT ( ) SI_UNIT ( $, .RADIAN. ) );
#159 = CARTESIAN_POINT ( 'NONE',  ( -302.5000000000000000, 25.00000000000000000, -230.0000000000000000 ) ) ;
#160 = EDGE_CURVE ( 'NONE', #125, #197, #330, .T. ) ;
#161 =( LENGTH_UNIT ( ) NAMED_UNIT ( * ) SI_UNIT ( .MILLI., .METRE. ) );
#162 = CARTESIAN_POINT ( 'NONE',  ( -257.5000000000000000, 25.00000000000000000, 185.0000000000000000 ) ) ;
#163 = AXIS2_PLACEMENT_3D ( 'NONE', #75, #296, #20 ) ;
#164 = ORIENTED_EDGE ( 'NONE', *, *, #370, .T. ) ;
#165 = SURFACE_STYLE_USAGE ( .BOTH. , #318 ) ;
#166 = VERTEX_POINT ( 'NONE', #46 ) ;
#167 = ORIENTED_EDGE ( 'NONE', *, *, #134, .F. ) ;
#168 = DIRECTION ( 'NONE',  ( 0.000000000000000000, 0.000000000000000000, -1.000000000000000000 ) ) ;
#169 = AXIS2_PLACEMENT_3D ( 'NONE', #17, #73, #202 ) ;
#170 = STYLED_ITEM ( 'NONE', ( #127 ), #401 ) ;
#171 = DIRECTION ( 'NONE',  ( 0.000000000000000000, -1.000000000000000000, 0.000000000000000000 ) ) ;
#172 = PLANE ( 'NONE',  #122 ) ;
#173 = FACE_OUTER_BOUND ( 'NONE', #278, .T. ) ;
#174 = VECTOR ( 'NONE', #327, 1000.000000000000000 ) ;
#175 =( GEOMETRIC_REPRESENTATION_CONTEXT ( 3 ) GLOBAL_UNCERTAINTY_ASSIGNED_CONTEXT ( ( #350 ) ) GLOBAL_UNIT_ASSIGNED_CONTEXT ( ( #161, #97, #343 ) ) REPRESENTATION_CONTEXT ( 'NONE', 'WORKASPACE' ) );
#176 = DIRECTION ( 'NONE',  ( 0.000000000000000000, 1.000000000000000000, 0.000000000000000000 ) ) ;
#177 = CARTESIAN_POINT ( 'NONE',  ( 302.5000000000000000, 0.000000000000000000, 185.0000000000000000 ) ) ;
#178 = ORIENTED_EDGE ( 'NONE', *, *, #228, .T. ) ;
#179 = CARTESIAN_POINT ( 'NONE',  ( -302.5000000000000000, 25.00000000000000000, -230.0000000000000000 ) ) ;
#180 = ORIENTED_EDGE ( 'NONE', *, *, #109, .T. ) ;
#181 = ADVANCED_FACE ( 'NONE', ( #262 ), #391, .F. ) ;
#182 = CARTESIAN_POINT ( 'NONE',  ( -302.5000000000000000, 0.000000000000000000, -230.0000000000000000 ) ) ;
#183 = EDGE_LOOP ( 'NONE', ( #321, #280, #337, #180 ) ) ;
#184 = DIRECTION ( 'NONE',  ( 0.000000000000000000, 0.000000000000000000, 1.000000000000000000 ) ) ;
#185 = CARTESIAN_POINT ( 'NONE',  ( -257.5000000000000000, 25.00000000000000000, 185.0000000000000000 ) ) ;
#186 = DIRECTION ( 'NONE',  ( 0.000000000000000000, -1.000000000000000000, 0.000000000000000000 ) ) ;
#187 = AXIS2_PLACEMENT_3D ( 'NONE', #36, #279, #6 ) ;
#188 = DIRECTION ( 'NONE',  ( 0.000000000000000000, 0.7071067811865550112, -0.7071067811865400232 ) ) ;
#189 = PRODUCT_DEFINITION ( 'UNKNOWN', '', #111, #314 ) ;
#190 = PLANE ( 'NONE',  #324 ) ;
#191 = EDGE_LOOP ( 'NONE', ( #5, #31, #265, #283, #164, #340 ) ) ;
#192 = EDGE_LOOP ( 'NONE', ( #102, #253, #399, #319, #93, #369 ) ) ;
#193 = FILL_AREA_STYLE ('',( #352 ) ) ;
#194 = ORIENTED_EDGE ( 'NONE', *, *, #359, .T. ) ;
#195 = VECTOR ( 'NONE', #367, 1000.000000000000000 ) ;
#196 =( NAMED_UNIT ( * ) PLANE_ANGLE_UNIT ( ) SI_UNIT ( $, .RADIAN. ) );
#197 = VERTEX_POINT ( 'NONE', #357 ) ;
#198 = CARTESIAN_POINT ( 'NONE',  ( -257.5000000000000000, 25.00000000000000000, 225.0000000000000000 ) ) ;
#199 = DIRECTION ( 'NONE',  ( 0.000000000000000000, 0.000000000000000000, -1.000000000000000000 ) ) ;
#200 = ADVANCED_FACE ( 'NONE', ( #123 ), #389, .T. ) ;
#201 = CARTESIAN_POINT ( 'NONE',  ( 297.5000000000000000, 25.00000000000000000, 0.000000000000000000 ) ) ;
#202 = DIRECTION ( 'NONE',  ( 0.000000000000000000, -1.000000000000000000, 0.000000000000000000 ) ) ;
#203 = DIRECTION ( 'NONE',  ( 0.000000000000000000, 0.000000000000000000, 1.000000000000000000 ) ) ;
#204 = EDGE_CURVE ( 'NONE', #89, #96, #71, .T. ) ;
#205 = DIRECTION ( 'NONE',  ( 0.7071067811865400232, 0.7071067811865550112, 0.000000000000000000 ) ) ;
#206 = ORIENTED_EDGE ( 'NONE', *, *, #140, .F. ) ;
#207 = CARTESIAN_POINT ( 'NONE',  ( -257.5000000000000000, 0.000000000000000000, 185.0000000000000000 ) ) ;
#208 = VERTEX_POINT ( 'NONE', #303 ) ;
#209 = PRODUCT_RELATED_PRODUCT_CATEGORY ( 'part', '', ( #335 ) ) ;
#210 = DIRECTION ( 'NONE',  ( 0.000000000000000000, -1.000000000000000000, 0.000000000000000000 ) ) ;
#211 = VERTEX_POINT ( 'NONE', #149 ) ;
#212 = LINE ( 'NONE', #393, #32 ) ;
#213 = ORIENTED_EDGE ( 'NONE', *, *, #78, .F. ) ;
#214 = DIRECTION ( 'NONE',  ( -1.000000000000000000, 0.000000000000000000, 0.000000000000000000 ) ) ;
#215 = ORIENTED_EDGE ( 'NONE', *, *, #228, .F. ) ;
#216 = DIRECTION ( 'NONE',  ( 0.000000000000000000, -0.7071067811865400232, -0.7071067811865550112 ) ) ;
#217 = DIRECTION ( 'NONE',  ( 1.000000000000000000, 0.000000000000000000, 0.000000000000000000 ) ) ;
#218 = LINE ( 'NONE', #288, #103 ) ;
#219 = ORIENTED_EDGE ( 'NONE', *, *, #333, .F. ) ;
#220 = EDGE_CURVE ( 'NONE', #353, #208, #146, .T. ) ;
#221 = SURFACE_STYLE_USAGE ( .BOTH. , #375 ) ;
#222 = EDGE_LOOP ( 'NONE', ( #136, #70, #285, #311 ) ) ;
#223 = AXIS2_PLACEMENT_3D ( 'NONE', #185, #30, #23 ) ;
#224 = DIRECTION ( 'NONE',  ( 1.000000000000000000, 0.000000000000000000, 0.000000000000000000 ) ) ;
#225 = DIRECTION ( 'NONE',  ( 0.000000000000000000, 0.000000000000000000, -1.000000000000000000 ) ) ;
#226 = CARTESIAN_POINT ( 'NONE',  ( 0.000000000000000000, 0.000000000000000000, 0.000000000000000000 ) ) ;
#227 = CARTESIAN_POINT ( 'NONE',  ( 297.5000000000000000, 25.00000000000000000, -230.0000000000000000 ) ) ;
#228 = EDGE_CURVE ( 'NONE', #197, #89, #301, .T. ) ;
#229 = PLANE ( 'NONE',  #163 ) ;
#230 = CIRCLE ( 'NONE', #384, 40.00000000000000711 ) ;
#231 = LINE ( 'NONE', #201, #76 ) ;
#232 =( NAMED_UNIT ( * ) SI_UNIT ( $, .STERADIAN. ) SOLID_ANGLE_UNIT ( ) );
#233 = CARTESIAN_POINT ( 'NONE',  ( 302.5000000000000000, 0.000000000000000000, 230.0000000000000000 ) ) ;
#234 = DIRECTION ( 'NONE',  ( 0.000000000000000000, 0.7071067811865550112, -0.7071067811865400232 ) ) ;
#235 = COLOUR_RGB ( '',0.7921568627450980005, 0.8196078431372548767, 0.9333333333333333481 ) ;
#236 = CARTESIAN_POINT ( 'NONE',  ( -302.5000000000000000, 25.00000000000000000, -230.0000000000000000 ) ) ;
#237 = CARTESIAN_POINT ( 'NONE',  ( -302.5000000000000000, 0.000000000000000000, -230.0000000000000000 ) ) ;
#238 = ORIENTED_EDGE ( 'NONE', *, *, #78, .T. ) ;
#239 = FACE_OUTER_BOUND ( 'NONE', #64, .T. ) ;
#240 = ORIENTED_EDGE ( 'NONE', *, *, #308, .T. ) ;
#241 = AXIS2_PLACEMENT_3D ( 'NONE', #113, #106, #225 ) ;
#242 = CARTESIAN_POINT ( 'NONE',  ( -302.5000000000000000, 20.00000000000000000, 230.0000000000000000 ) ) ;
#243 = ORIENTED_EDGE ( 'NONE', *, *, #99, .F. ) ;
#244 = DIRECTION ( 'NONE',  ( 0.000000000000000000, -0.7071067811865550112, 0.7071067811865400232 ) ) ;
#245 = EDGE_LOOP ( 'NONE', ( #69, #43, #316, #254 ) ) ;
#246 = DIRECTION ( 'NONE',  ( 0.000000000000000000, 0.000000000000000000, -1.000000000000000000 ) ) ;
#247 = DIRECTION ( 'NONE',  ( 1.000000000000000000, 0.000000000000000000, 0.000000000000000000 ) ) ;
#248 = VERTEX_POINT ( 'NONE', #29 ) ;
#249 = EDGE_CURVE ( 'NONE', #67, #273, #263, .T. ) ;
#250 = CARTESIAN_POINT ( 'NONE',  ( 257.5000000000000000, 25.00000000000000000, 185.0000000000000000 ) ) ;
#251 = ORIENTED_EDGE ( 'NONE', *, *, #397, .T. ) ;
#252 = PRESENTATION_STYLE_ASSIGNMENT (( #165 ) ) ;
#253 = ORIENTED_EDGE ( 'NONE', *, *, #63, .T. ) ;
#254 = ORIENTED_EDGE ( 'NONE', *, *, #256, .F. ) ;
#255 = PRESENTATION_LAYER_ASSIGNMENT (  '', '', ( #170 ) ) ;
#256 = EDGE_CURVE ( 'NONE', #9, #166, #272, .T. ) ;
#257 = CARTESIAN_POINT ( 'NONE',  ( 297.5000000000000000, 25.00000000000000000, -230.0000000000000000 ) ) ;
#258 = FACE_OUTER_BOUND ( 'NONE', #100, .T. ) ;
#259 = DIRECTION ( 'NONE',  ( 0.000000000000000000, -1.000000000000000000, 0.000000000000000000 ) ) ;
#260 = VECTOR ( 'NONE', #27, 1000.000000000000000 ) ;
#261 =( GEOMETRIC_REPRESENTATION_CONTEXT ( 3 ) GLOBAL_UNCERTAINTY_ASSIGNED_CONTEXT ( ( #58 ) ) GLOBAL_UNIT_ASSIGNED_CONTEXT ( ( #66, #196, #232 ) ) REPRESENTATION_CONTEXT ( 'NONE', 'WORKASPACE' ) );
#262 = FACE_OUTER_BOUND ( 'NONE', #152, .T. ) ;
#263 = LINE ( 'NONE', #392, #90 ) ;
#264 = LINE ( 'NONE', #236, #195 ) ;
#265 = ORIENTED_EDGE ( 'NONE', *, *, #204, .T. ) ;
#266 = AXIS2_PLACEMENT_3D ( 'NONE', #91, #306, #154 ) ;
#267 = VECTOR ( 'NONE', #234, 1000.000000000000000 ) ;
#268 = DIRECTION ( 'NONE',  ( 0.7071067811865400232, 0.7071067811865550112, 0.000000000000000000 ) ) ;
#269 = ORIENTED_EDGE ( 'NONE', *, *, #38, .T. ) ;
#270 = LINE ( 'NONE', #179, #297 ) ;
#271 = EDGE_LOOP ( 'NONE', ( #147, #37, #215, #60 ) ) ;
#272 = LINE ( 'NONE', #242, #317 ) ;
#273 = VERTEX_POINT ( 'NONE', #120 ) ;
#274 = VECTOR ( 'NONE', #217, 1000.000000000000000 ) ;
#275 = EDGE_CURVE ( 'NONE', #166, #197, #276, .T. ) ;
#276 = CIRCLE ( 'NONE', #105, 44.99999999999998579 ) ;
#277 = VECTOR ( 'NONE', #299, 1000.000000000000000 ) ;
#278 = EDGE_LOOP ( 'NONE', ( #167, #305, #396, #374 ) ) ;
#279 = DIRECTION ( 'NONE',  ( 0.000000000000000000, -1.000000000000000000, 0.000000000000000000 ) ) ;
#280 = ORIENTED_EDGE ( 'NONE', *, *, #220, .T. ) ;
#281 = FACE_OUTER_BOUND ( 'NONE', #245, .T. ) ;
#282 = EDGE_CURVE ( 'NONE', #9, #248, #54, .T. ) ;
#283 = ORIENTED_EDGE ( 'NONE', *, *, #2, .T. ) ;
#284 = FACE_OUTER_BOUND ( 'NONE', #155, .T. ) ;
#285 = ORIENTED_EDGE ( 'NONE', *, *, #160, .F. ) ;
#286 = CARTESIAN_POINT ( 'NONE',  ( 0.000000000000000000, 25.00000000000000000, 225.0000000000000000 ) ) ;
#287 = DIRECTION ( 'NONE',  ( 0.000000000000000000, 0.000000000000000000, 1.000000000000000000 ) ) ;
#288 = CARTESIAN_POINT ( 'NONE',  ( -257.5000000000000000, 20.00000000000000000, 230.0000000000000000 ) ) ;
#289 = ADVANCED_FACE ( 'NONE', ( #115 ), #88, .F. ) ;
#290 = VECTOR ( 'NONE', #247, 1000.000000000000000 ) ;
#291 = DIRECTION ( 'NONE',  ( 0.7071067811865400232, -0.7071067811865550112, 0.000000000000000000 ) ) ;
#292 = PRODUCT_DEFINITION_SHAPE ( 'NONE', 'NONE',  #189 ) ;
#293 = LINE ( 'NONE', #138, #110 ) ;
#294 = CARTESIAN_POINT ( 'NONE',  ( 257.5000000000000000, 0.000000000000000000, 185.0000000000000000 ) ) ;
#295 = EDGE_CURVE ( 'NONE', #166, #380, #212, .T. ) ;
#296 = DIRECTION ( 'NONE',  ( -0.7071067811865550112, -0.7071067811865400232, 0.000000000000000000 ) ) ;
#297 = VECTOR ( 'NONE', #373, 1000.000000000000000 ) ;
#298 = LINE ( 'NONE', #139, #56 ) ;
#299 = DIRECTION ( 'NONE',  ( 0.000000000000000000, 1.000000000000000000, 0.000000000000000000 ) ) ;
#300 = VERTEX_POINT ( 'NONE', #118 ) ;
#301 = LINE ( 'NONE', #26, #377 ) ;
#302 = ORIENTED_EDGE ( 'NONE', *, *, #282, .F. ) ;
#303 = CARTESIAN_POINT ( 'NONE',  ( 302.5000000000000000, 20.00000000000000000, 185.0000000000000000 ) ) ;
#304 = UNCERTAINTY_MEASURE_WITH_UNIT (LENGTH_MEASURE( 1.000000000000000082E-05 ), #68, 'distance_accuracy_value', 'NONE');
#305 = ORIENTED_EDGE ( 'NONE', *, *, #87, .F. ) ;
#306 = DIRECTION ( 'NONE',  ( 1.000000000000000000, 0.000000000000000000, 0.000000000000000000 ) ) ;
#307 = VERTEX_POINT ( 'NONE', #182 ) ;
#308 = EDGE_CURVE ( 'NONE', #353, #86, #398, .T. ) ;
#309 = APPLICATION_CONTEXT ( 'automotive_design' ) ;
#310 = DIRECTION ( 'NONE',  ( -1.000000000000000000, 0.000000000000000000, 0.000000000000000000 ) ) ;
#311 = ORIENTED_EDGE ( 'NONE', *, *, #365, .F. ) ;
#312 = AXIS2_PLACEMENT_3D ( 'NONE', #226, #287, #328 ) ;
#313 = VERTEX_POINT ( 'NONE', #177 ) ;
#314 = PRODUCT_DEFINITION_CONTEXT ( 'detailed design', #309, 'design' ) ;
#315 = ORIENTED_EDGE ( 'NONE', *, *, #370, .F. ) ;
#316 = ORIENTED_EDGE ( 'NONE', *, *, #16, .F. ) ;
#317 = VECTOR ( 'NONE', #214, 1000.000000000000000 ) ;
#318 = SURFACE_SIDE_STYLE ('',( #347 ) ) ;
#319 = ORIENTED_EDGE ( 'NONE', *, *, #365, .T. ) ;
#320 = CARTESIAN_POINT ( 'NONE',  ( 257.5000000000000000, 25.00000000000000000, 185.0000000000000000 ) ) ;
#321 = ORIENTED_EDGE ( 'NONE', *, *, #308, .F. ) ;
#322 = LINE ( 'NONE', #233, #51 ) ;
#323 = AXIS2_PLACEMENT_3D ( 'NONE', #77, #259, #390 ) ;
#324 = AXIS2_PLACEMENT_3D ( 'NONE', #101, #216, #244 ) ;
#325 = CARTESIAN_POINT ( 'NONE',  ( -302.5000000000000000, 25.00000000000000000, 185.0000000000000000 ) ) ;
#326 = EDGE_CURVE ( 'NONE', #86, #307, #368, .T. ) ;
#327 = DIRECTION ( 'NONE',  ( 0.000000000000000000, -1.000000000000000000, 0.000000000000000000 ) ) ;
#328 = DIRECTION ( 'NONE',  ( 1.000000000000000000, 0.000000000000000000, 0.000000000000000000 ) ) ;
#329 = PLANE ( 'NONE',  #19 ) ;
#330 = LINE ( 'NONE', #325, #45 ) ;
#331 = VECTOR ( 'NONE', #310, 1000.000000000000000 ) ;
#332 = CARTESIAN_POINT ( 'NONE',  ( -257.5000000000000000, 20.00000000000000000, 185.0000000000000000 ) ) ;
#333 = EDGE_CURVE ( 'NONE', #130, #273, #270, .T. ) ;
#334 = DIRECTION ( 'NONE',  ( 0.000000000000000000, -1.000000000000000000, 0.000000000000000000 ) ) ;
#335 = PRODUCT ( 'CB60C_STP_V10522', 'CB60C_STP_V10522', '', ( #80 ) ) ;
#336 = CARTESIAN_POINT ( 'NONE',  ( 302.5000000000000000, 20.00000000000000000, 230.0000000000000000 ) ) ;
#337 = ORIENTED_EDGE ( 'NONE', *, *, #140, .T. ) ;
#338 = VECTOR ( 'NONE', #291, 1000.000000000000000 ) ;
#339 = DIRECTION ( 'NONE',  ( 0.000000000000000000, 0.000000000000000000, -1.000000000000000000 ) ) ;
#340 = ORIENTED_EDGE ( 'NONE', *, *, #87, .T. ) ;
#341 = CARTESIAN_POINT ( 'NONE',  ( 257.5000000000000000, 25.00000000000000000, 230.0000000000000000 ) ) ;
#342 = ORIENTED_EDGE ( 'NONE', *, *, #160, .T. ) ;
#343 =( NAMED_UNIT ( * ) SI_UNIT ( $, .STERADIAN. ) SOLID_ANGLE_UNIT ( ) );
#344 = ORIENTED_EDGE ( 'NONE', *, *, #355, .F. ) ;
#345 = AXIS2_PLACEMENT_3D ( 'NONE', #294, #171, #363 ) ;
#346 =( GEOMETRIC_REPRESENTATION_CONTEXT ( 3 ) GLOBAL_UNCERTAINTY_ASSIGNED_CONTEXT ( ( #304 ) ) GLOBAL_UNIT_ASSIGNED_CONTEXT ( ( #68, #158, #8 ) ) REPRESENTATION_CONTEXT ( 'NONE', 'WORKASPACE' ) );
#347 = SURFACE_STYLE_FILL_AREA ( #193 ) ;
#348 = LINE ( 'NONE', #376, #65 ) ;
#349 = ADVANCED_FACE ( 'NONE', ( #239 ), #371, .F. ) ;
#350 = UNCERTAINTY_MEASURE_WITH_UNIT (LENGTH_MEASURE( 1.000000000000000082E-05 ), #161, 'distance_accuracy_value', 'NONE');
#351 = DIRECTION ( 'NONE',  ( 0.000000000000000000, -1.000000000000000000, 0.000000000000000000 ) ) ;
#352 = FILL_AREA_STYLE_COLOUR ( '', #235 ) ;
#353 = VERTEX_POINT ( 'NONE', #400 ) ;
#354 = MECHANICAL_DESIGN_GEOMETRIC_PRESENTATION_REPRESENTATION (  '', ( #170 ), #175 ) ;
#355 = EDGE_CURVE ( 'NONE', #211, #9, #95, .T. ) ;
#356 = LINE ( 'NONE', #72, #290 ) ;
#357 = CARTESIAN_POINT ( 'NONE',  ( -302.5000000000000000, 20.00000000000000000, 185.0000000000000000 ) ) ;
#358 = DIRECTION ( 'NONE',  ( 0.000000000000000000, 0.000000000000000000, -1.000000000000000000 ) ) ;
#359 = EDGE_CURVE ( 'NONE', #67, #307, #264, .T. ) ;
#360 = SHAPE_DEFINITION_REPRESENTATION ( #292, #25 ) ;
#361 = CARTESIAN_POINT ( 'NONE',  ( -297.5000000000000000, 25.00000000000000000, 185.0000000000000000 ) ) ;
#362 = DIRECTION ( 'NONE',  ( 0.000000000000000000, -1.000000000000000000, 0.000000000000000000 ) ) ;
#363 = DIRECTION ( 'NONE',  ( 0.000000000000000000, 0.000000000000000000, -1.000000000000000000 ) ) ;
#364 = CARTESIAN_POINT ( 'NONE',  ( 302.5000000000000000, 25.00000000000000000, 230.0000000000000000 ) ) ;
#365 = EDGE_CURVE ( 'NONE', #380, #125, #83, .T. ) ;
#366 = CONICAL_SURFACE ( 'NONE', #59, 40.00000000000000711, 0.7853981633974382870 ) ;
#367 = DIRECTION ( 'NONE',  ( 0.000000000000000000, -1.000000000000000000, 0.000000000000000000 ) ) ;
#368 = LINE ( 'NONE', #237, #331 ) ;
#369 = ORIENTED_EDGE ( 'NONE', *, *, #326, .F. ) ;
#370 = EDGE_CURVE ( 'NONE', #248, #300, #230, .T. ) ;
#371 = PLANE ( 'NONE',  #266 ) ;
#372 = ORIENTED_EDGE ( 'NONE', *, *, #256, .T. ) ;
#373 = DIRECTION ( 'NONE',  ( -1.000000000000000000, 0.000000000000000000, 0.000000000000000000 ) ) ;
#374 = ORIENTED_EDGE ( 'NONE', *, *, #220, .F. ) ;
#375 = SURFACE_SIDE_STYLE ('',( #41 ) ) ;
#376 = CARTESIAN_POINT ( 'NONE',  ( 302.5000000000000000, 20.00000000000000000, 185.0000000000000000 ) ) ;
#377 = VECTOR ( 'NONE', #268, 1000.000000000000000 ) ;
#378 = DIRECTION ( 'NONE',  ( 0.000000000000000000, 0.000000000000000000, -1.000000000000000000 ) ) ;
#379 = ORIENTED_EDGE ( 'NONE', *, *, #355, .T. ) ;
#380 = VERTEX_POINT ( 'NONE', #126 ) ;
#381 = ADVANCED_FACE ( 'NONE', ( #281 ), #190, .F. ) ;
#382 = FILL_AREA_STYLE_COLOUR ( '', #124 ) ;
#383 = DIRECTION ( 'NONE',  ( 0.000000000000000000, 0.000000000000000000, 1.000000000000000000 ) ) ;
#384 = AXIS2_PLACEMENT_3D ( 'NONE', #320, #3, #378 ) ;
#385 = DIRECTION ( 'NONE',  ( 0.000000000000000000, 0.000000000000000000, -1.000000000000000000 ) ) ;
#386 = LINE ( 'NONE', #81, #148 ) ;
#387 = LINE ( 'NONE', #257, #338 ) ;
#388 = ADVANCED_FACE ( 'NONE', ( #284 ), #366, .T. ) ;
#389 = CONICAL_SURFACE ( 'NONE', #40, 40.00000000000000711, 0.7853981633974382870 ) ;
#390 = DIRECTION ( 'NONE',  ( 0.000000000000000000, 0.000000000000000000, -1.000000000000000000 ) ) ;
#391 = PLANE ( 'NONE',  #241 ) ;
#392 = CARTESIAN_POINT ( 'NONE',  ( -297.5000000000000000, 25.00000000000000000, -230.0000000000000000 ) ) ;
#393 = CARTESIAN_POINT ( 'NONE',  ( -257.5000000000000000, 25.00000000000000000, 230.0000000000000000 ) ) ;
#394 = ORIENTED_EDGE ( 'NONE', *, *, #134, .T. ) ;
#395 = DIRECTION ( 'NONE',  ( 0.000000000000000000, -1.000000000000000000, 0.000000000000000000 ) ) ;
#396 = ORIENTED_EDGE ( 'NONE', *, *, #38, .F. ) ;
#397 = EDGE_CURVE ( 'NONE', #208, #9, #14, .T. ) ;
#398 = LINE ( 'NONE', #151, #92 ) ;
#399 = ORIENTED_EDGE ( 'NONE', *, *, #33, .F. ) ;
#400 = CARTESIAN_POINT ( 'NONE',  ( 302.5000000000000000, 20.00000000000000000, -230.0000000000000000 ) ) ;
#401 = MANIFOLD_SOLID_BREP ( 'NONE', #50 ) ;
#402 = EDGE_LOOP ( 'NONE', ( #117, #39, #219, #394, #240, #157 ) ) ;
#403 = MECHANICAL_DESIGN_GEOMETRIC_PRESENTATION_REPRESENTATION (  '', ( #52 ), #261 ) ;
ENDSEC;
END-ISO-10303-21;
